ISO-10303-21;
HEADER;
FILE_DESCRIPTION (( 'STEP AP214' ),
    '1' );
FILE_NAME ('GCC-411124.STEP',
    '2020-02-15T10:10:58',
    ( 'China' ),
    ( 'Microsoft' ),
    'SwSTEP 2.0',
    'SolidWorks 2018',
    '' );
FILE_SCHEMA (( 'AUTOMOTIVE_DESIGN' ));
ENDSEC;

DATA;
#1 = FACE_OUTER_BOUND ( 'NONE', #147, .T. ) ;
#2 = DIRECTION ( 'NONE',  ( 0.0000000000000000000, 0.0000000000000000000, -1.000000000000000000 ) ) ;
#3 = DIRECTION ( 'NONE',  ( -0.0000000000000000000, -0.0000000000000000000, -1.000000000000000000 ) ) ;
#4 = CARTESIAN_POINT ( 'NONE',  ( 0.0000000000000000000, 0.0000000000000000000, 0.0000000000000000000 ) ) ;
#5 = CARTESIAN_POINT ( 'NONE',  ( 12.69999999999999929, 1.555301434917138433E-15, 3.000000000000000000 ) ) ;
#6 =( NAMED_UNIT ( * ) PLANE_ANGLE_UNIT ( ) SI_UNIT ( $, .RADIAN. ) );
#7 = PRESENTATION_STYLE_ASSIGNMENT (( #177 ) ) ;
#8 = SURFACE_STYLE_FILL_AREA ( #84 ) ;
#9 = CIRCLE ( 'NONE', #130, 12.69999999999999929 ) ;
#10 = VERTEX_POINT ( 'NONE', #227 ) ;
#11 = AXIS2_PLACEMENT_3D ( 'NONE', #4, #137, #38 ) ;
#12 = DIRECTION ( 'NONE',  ( 1.000000000000000000, 0.0000000000000000000, 0.0000000000000000000 ) ) ;
#13 = PRESENTATION_STYLE_ASSIGNMENT (( #113 ) ) ;
#14 = CARTESIAN_POINT ( 'NONE',  ( 0.0000000000000000000, 0.0000000000000000000, 3.000000000000000000 ) ) ;
#15 = DIRECTION ( 'NONE',  ( -0.0000000000000000000, -0.0000000000000000000, -1.000000000000000000 ) ) ;
#16 = DIRECTION ( 'NONE',  ( 0.0000000000000000000, 0.0000000000000000000, 1.000000000000000000 ) ) ;
#17 = FACE_OUTER_BOUND ( 'NONE', #76, .T. ) ;
#18 = VERTEX_POINT ( 'NONE', #129 ) ;
#19 = AXIS2_PLACEMENT_3D ( 'NONE', #79, #2, #133 ) ;
#20 = CIRCLE ( 'NONE', #105, 12.40000000000000036 ) ;
#21 = ORIENTED_EDGE ( 'NONE', *, *, #210, .T. ) ;
#22 = ADVANCED_FACE ( 'NONE', ( #218 ), #124, .T. ) ;
#23 =( LENGTH_UNIT ( ) NAMED_UNIT ( * ) SI_UNIT ( .MILLI., .METRE. ) );
#24 = PRODUCT_DEFINITION_FORMATION_WITH_SPECIFIED_SOURCE ( 'ÈÎºÎ', '', #78, .NOT_KNOWN. ) ;
#25 = VERTEX_POINT ( 'NONE', #35 ) ;
#26 = LINE ( 'NONE', #100, #116 ) ;
#27 = LINE ( 'NONE', #222, #103 ) ;
#28 = DIRECTION ( 'NONE',  ( 1.000000000000000000, 0.0000000000000000000, 0.0000000000000000000 ) ) ;
#29 = DIRECTION ( 'NONE',  ( -0.7071067811865495711, 0.0000000000000000000, -0.7071067811865454633 ) ) ;
#30 = MECHANICAL_DESIGN_GEOMETRIC_PRESENTATION_REPRESENTATION (  '', ( #141 ), #45 ) ;
#31 = CARTESIAN_POINT ( 'NONE',  ( 0.0000000000000000000, 0.0000000000000000000, 2.699999999999994849 ) ) ;
#32 = FILL_AREA_STYLE_COLOUR ( '', #158 ) ;
#33 = DIRECTION ( 'NONE',  ( -0.0000000000000000000, -0.0000000000000000000, 1.000000000000000000 ) ) ;
#34 = AXIS2_PLACEMENT_3D ( 'NONE', #89, #93, #151 ) ;
#35 = CARTESIAN_POINT ( 'NONE',  ( -12.69999999999999929, 0.0000000000000000000, 0.2999999999999981570 ) ) ;
#36 = DIRECTION ( 'NONE',  ( 1.000000000000000000, 0.0000000000000000000, 0.0000000000000000000 ) ) ;
#37 = DIRECTION ( 'NONE',  ( 0.7071067811865495711, 8.659560562354956277E-17, -0.7071067811865454633 ) ) ;
#38 = DIRECTION ( 'NONE',  ( 1.000000000000000000, 0.0000000000000000000, 0.0000000000000000000 ) ) ;
#39 = AXIS2_PLACEMENT_3D ( 'NONE', #235, #49, #201 ) ;
#40 = ADVANCED_FACE ( 'NONE', ( #160 ), #90, .T. ) ;
#41 =( NAMED_UNIT ( * ) PLANE_ANGLE_UNIT ( ) SI_UNIT ( $, .RADIAN. ) );
#42 = PRODUCT_DEFINITION_CONTEXT ( 'detailed design', #194, 'design' ) ;
#43 = ORIENTED_EDGE ( 'NONE', *, *, #198, .T. ) ;
#44 = EDGE_LOOP ( 'NONE', ( #231, #88, #170, #95 ) ) ;
#45 =( GEOMETRIC_REPRESENTATION_CONTEXT ( 3 ) GLOBAL_UNCERTAINTY_ASSIGNED_CONTEXT ( ( #178 ) ) GLOBAL_UNIT_ASSIGNED_CONTEXT ( ( #193, #41, #232 ) ) REPRESENTATION_CONTEXT ( 'NONE', 'WORKASPACE' ) );
#46 = ADVANCED_FACE ( 'NONE', ( #17 ), #216, .F. ) ;
#47 = SURFACE_STYLE_FILL_AREA ( #134 ) ;
#48 = AXIS2_PLACEMENT_3D ( 'NONE', #97, #33, #99 ) ;
#49 = DIRECTION ( 'NONE',  ( 0.0000000000000000000, 0.0000000000000000000, 1.000000000000000000 ) ) ;
#50 = CARTESIAN_POINT ( 'NONE',  ( 0.0000000000000000000, 0.0000000000000000000, 3.000000000000000000 ) ) ;
#51 = LINE ( 'NONE', #148, #139 ) ;
#52 = DIRECTION ( 'NONE',  ( 0.0000000000000000000, 0.0000000000000000000, -1.000000000000000000 ) ) ;
#53 = DIRECTION ( 'NONE',  ( 0.0000000000000000000, 0.0000000000000000000, -1.000000000000000000 ) ) ;
#54 = AXIS2_PLACEMENT_3D ( 'NONE', #204, #167, #74 ) ;
#55 = FILL_AREA_STYLE_COLOUR ( '', #162 ) ;
#56 = ORIENTED_EDGE ( 'NONE', *, *, #96, .T. ) ;
#57 = DIRECTION ( 'NONE',  ( 0.7071067811865495711, 0.0000000000000000000, 0.7071067811865454633 ) ) ;
#58 = DIRECTION ( 'NONE',  ( 1.000000000000000000, 0.0000000000000000000, 0.0000000000000000000 ) ) ;
#59 = ORIENTED_EDGE ( 'NONE', *, *, #175, .T. ) ;
#60 = APPLICATION_PROTOCOL_DEFINITION ( 'draft international standard', 'automotive_design', 1998, #194 ) ;
#61 = SURFACE_SIDE_STYLE ('',( #8 ) ) ;
#62 = AXIS2_PLACEMENT_3D ( 'NONE', #172, #77, #36 ) ;
#63 = SHAPE_DEFINITION_REPRESENTATION ( #66, #195 ) ;
#64 = APPLICATION_CONTEXT ( 'automotive_design' ) ;
#65 = PRESENTATION_LAYER_ASSIGNMENT (  '', '', ( #234 ) ) ;
#66 = PRODUCT_DEFINITION_SHAPE ( 'NONE', 'NONE',  #87 ) ;
#67 = EDGE_CURVE ( 'NONE', #109, #10, #106, .T. ) ;
#68 = ORIENTED_EDGE ( 'NONE', *, *, #82, .T. ) ;
#69 = UNCERTAINTY_MEASURE_WITH_UNIT (LENGTH_MEASURE( 1.000000000000000082E-05 ), #23, 'distance_accuracy_value', 'NONE');
#70 = EDGE_LOOP ( 'NONE', ( #214, #128, #108, #163 ) ) ;
#71 = MECHANICAL_DESIGN_GEOMETRIC_PRESENTATION_REPRESENTATION (  '', ( #234 ), #132 ) ;
#72 = ADVANCED_FACE ( 'NONE', ( #138 ), #131, .T. ) ;
#73 = ORIENTED_EDGE ( 'NONE', *, *, #196, .T. ) ;
#74 = DIRECTION ( 'NONE',  ( 1.000000000000000000, 0.0000000000000000000, 0.0000000000000000000 ) ) ;
#75 = VECTOR ( 'NONE', #169, 1000.000000000000000 ) ;
#76 = EDGE_LOOP ( 'NONE', ( #59, #43 ) ) ;
#77 = DIRECTION ( 'NONE',  ( -0.0000000000000000000, -0.0000000000000000000, 1.000000000000000000 ) ) ;
#78 = PRODUCT ( 'GCC-411124', 'GCC-411124', '', ( #157 ) ) ;
#79 = CARTESIAN_POINT ( 'NONE',  ( 0.0000000000000000000, 0.0000000000000000000, 2.699999999999994849 ) ) ;
#80 = DIRECTION ( 'NONE',  ( -0.0000000000000000000, -0.0000000000000000000, -1.000000000000000000 ) ) ;
#81 =( NAMED_UNIT ( * ) PLANE_ANGLE_UNIT ( ) SI_UNIT ( $, .RADIAN. ) );
#82 = EDGE_CURVE ( 'NONE', #117, #183, #9, .T. ) ;
#83 = ORIENTED_EDGE ( 'NONE', *, *, #126, .T. ) ;
#84 = FILL_AREA_STYLE ('',( #32 ) ) ;
#85 = ADVANCED_FACE ( 'NONE', ( #156 ), #182, .T. ) ;
#86 = AXIS2_PLACEMENT_3D ( 'NONE', #225, #15, #188 ) ;
#87 = PRODUCT_DEFINITION ( 'Î´Öª', '', #24, #42 ) ;
#88 = ORIENTED_EDGE ( 'NONE', *, *, #119, .T. ) ;
#89 = CARTESIAN_POINT ( 'NONE',  ( 0.0000000000000000000, 0.0000000000000000000, 3.000000000000000000 ) ) ;
#90 = CONICAL_SURFACE ( 'NONE', #224, 12.39999999999999325, 0.7853981633974511656 ) ;
#91 = AXIS2_PLACEMENT_3D ( 'NONE', #208, #197, #92 ) ;
#92 = DIRECTION ( 'NONE',  ( 1.000000000000000000, 0.0000000000000000000, 0.0000000000000000000 ) ) ;
#93 = DIRECTION ( 'NONE',  ( -0.0000000000000000000, -0.0000000000000000000, -1.000000000000000000 ) ) ;
#94 = EDGE_CURVE ( 'NONE', #10, #183, #51, .T. ) ;
#95 = ORIENTED_EDGE ( 'NONE', *, *, #126, .F. ) ;
#96 = EDGE_CURVE ( 'NONE', #10, #109, #200, .T. ) ;
#97 = CARTESIAN_POINT ( 'NONE',  ( 0.0000000000000000000, 0.0000000000000000000, 0.2999999999999981570 ) ) ;
#98 =( NAMED_UNIT ( * ) SI_UNIT ( $, .STERADIAN. ) SOLID_ANGLE_UNIT ( ) );
#99 = DIRECTION ( 'NONE',  ( 1.000000000000000000, 0.0000000000000000000, 0.0000000000000000000 ) ) ;
#100 = CARTESIAN_POINT ( 'NONE',  ( 12.69999999999999929, 0.0000000000000000000, 0.2999999999999981570 ) ) ;
#101 = ORIENTED_EDGE ( 'NONE', *, *, #165, .T. ) ;
#102 = ORIENTED_EDGE ( 'NONE', *, *, #67, .T. ) ;
#103 = VECTOR ( 'NONE', #3, 1000.000000000000000 ) ;
#104 = AXIS2_PLACEMENT_3D ( 'NONE', #135, #53, #154 ) ;
#105 = AXIS2_PLACEMENT_3D ( 'NONE', #186, #80, #206 ) ;
#106 = CIRCLE ( 'NONE', #181, 12.39999999999999325 ) ;
#107 = CIRCLE ( 'NONE', #155, 12.69999999999999929 ) ;
#108 = ORIENTED_EDGE ( 'NONE', *, *, #190, .F. ) ;
#109 = VERTEX_POINT ( 'NONE', #217 ) ;
#110 = UNCERTAINTY_MEASURE_WITH_UNIT (LENGTH_MEASURE( 1.000000000000000082E-05 ), #189, 'distance_accuracy_value', 'NONE');
#111 = CIRCLE ( 'NONE', #86, 12.40000000000000036 ) ;
#112 = CARTESIAN_POINT ( 'NONE',  ( 0.0000000000000000000, 0.0000000000000000000, 0.2999999999999981570 ) ) ;
#113 = SURFACE_STYLE_USAGE ( .BOTH. , #229 ) ;
#114 = PLANE ( 'NONE',  #115 ) ;
#115 = AXIS2_PLACEMENT_3D ( 'NONE', #171, #16, #228 ) ;
#116 = VECTOR ( 'NONE', #57, 1000.000000000000000 ) ;
#117 = VERTEX_POINT ( 'NONE', #164 ) ;
#118 = CARTESIAN_POINT ( 'NONE',  ( -12.40000000000000036, 1.536931732929928200E-15, 0.0000000000000000000 ) ) ;
#119 = EDGE_CURVE ( 'NONE', #209, #25, #146, .T. ) ;
#120 = APPLICATION_PROTOCOL_DEFINITION ( 'draft international standard', 'automotive_design', 1998, #64 ) ;
#121 = ORIENTED_EDGE ( 'NONE', *, *, #165, .F. ) ;
#122 = EDGE_CURVE ( 'NONE', #183, #25, #27, .T. ) ;
#123 =( NAMED_UNIT ( * ) SI_UNIT ( $, .STERADIAN. ) SOLID_ANGLE_UNIT ( ) );
#124 = CYLINDRICAL_SURFACE ( 'NONE', #34, 12.69999999999999929 ) ;
#125 = EDGE_LOOP ( 'NONE', ( #56, #102 ) ) ;
#126 = EDGE_CURVE ( 'NONE', #18, #192, #26, .T. ) ;
#127 = CONICAL_SURFACE ( 'NONE', #48, 12.69999999999999929, 0.7853981633974511656 ) ;
#128 = ORIENTED_EDGE ( 'NONE', *, *, #203, .T. ) ;
#129 = CARTESIAN_POINT ( 'NONE',  ( 12.40000000000000036, 0.0000000000000000000, 0.0000000000000000000 ) ) ;
#130 = AXIS2_PLACEMENT_3D ( 'NONE', #31, #52, #12 ) ;
#131 = CONICAL_SURFACE ( 'NONE', #91, 12.69999999999999929, 0.7853981633974511656 ) ;
#132 =( GEOMETRIC_REPRESENTATION_CONTEXT ( 3 ) GLOBAL_UNCERTAINTY_ASSIGNED_CONTEXT ( ( #110 ) ) GLOBAL_UNIT_ASSIGNED_CONTEXT ( ( #189, #81, #98 ) ) REPRESENTATION_CONTEXT ( 'NONE', 'WORKASPACE' ) );
#133 = DIRECTION ( 'NONE',  ( 1.000000000000000000, 0.0000000000000000000, 0.0000000000000000000 ) ) ;
#134 = FILL_AREA_STYLE ('',( #55 ) ) ;
#135 = CARTESIAN_POINT ( 'NONE',  ( 0.0000000000000000000, 0.0000000000000000000, 3.000000000000000000 ) ) ;
#136 = ORIENTED_EDGE ( 'NONE', *, *, #175, .F. ) ;
#137 = DIRECTION ( 'NONE',  ( 0.0000000000000000000, 0.0000000000000000000, 1.000000000000000000 ) ) ;
#138 = FACE_OUTER_BOUND ( 'NONE', #174, .T. ) ;
#139 = VECTOR ( 'NONE', #29, 1000.000000000000000 ) ;
#140 = ORIENTED_EDGE ( 'NONE', *, *, #119, .F. ) ;
#141 = STYLED_ITEM ( 'NONE', ( #7 ), #195 ) ;
#142 = MANIFOLD_SOLID_BREP ( 'µ¹½Ç1', #179 ) ;
#143 = CIRCLE ( 'NONE', #62, 12.69999999999999929 ) ;
#144 = DIRECTION ( 'NONE',  ( 0.0000000000000000000, 0.0000000000000000000, -1.000000000000000000 ) ) ;
#145 = DIRECTION ( 'NONE',  ( -0.7071067811865495711, 8.659560562354957510E-17, 0.7071067811865454633 ) ) ;
#146 = LINE ( 'NONE', #236, #150 ) ;
#147 = EDGE_LOOP ( 'NONE', ( #223, #211, #191, #202 ) ) ;
#148 = CARTESIAN_POINT ( 'NONE',  ( -12.39999999999999325, 0.0000000000000000000, 3.000000000000000000 ) ) ;
#149 = DIRECTION ( 'NONE',  ( -0.0000000000000000000, -0.0000000000000000000, 1.000000000000000000 ) ) ;
#150 = VECTOR ( 'NONE', #145, 1000.000000000000000 ) ;
#151 = DIRECTION ( 'NONE',  ( -1.000000000000000000, 0.0000000000000000000, 0.0000000000000000000 ) ) ;
#152 = ADVANCED_FACE ( 'NONE', ( #1 ), #187, .T. ) ;
#153 = CARTESIAN_POINT ( 'NONE',  ( -12.69999999999999929, 0.0000000000000000000, 2.699999999999994849 ) ) ;
#154 = DIRECTION ( 'NONE',  ( -1.000000000000000000, 0.0000000000000000000, 0.0000000000000000000 ) ) ;
#155 = AXIS2_PLACEMENT_3D ( 'NONE', #112, #149, #58 ) ;
#156 = FACE_OUTER_BOUND ( 'NONE', #180, .T. ) ;
#157 = PRODUCT_CONTEXT ( 'NONE', #64, 'mechanical' ) ;
#158 = COLOUR_RGB ( '',0.9411764705882352811, 0.9607843137254902244, 0.9686274509803921573 ) ;
#159 = ORIENTED_EDGE ( 'NONE', *, *, #122, .T. ) ;
#160 = FACE_OUTER_BOUND ( 'NONE', #70, .T. ) ;
#161 = DIRECTION ( 'NONE',  ( -1.000000000000000000, 0.0000000000000000000, 0.0000000000000000000 ) ) ;
#162 = COLOUR_RGB ( '',0.9411764705882352811, 0.9607843137254902244, 0.9686274509803921573 ) ;
#163 = ORIENTED_EDGE ( 'NONE', *, *, #94, .F. ) ;
#164 = CARTESIAN_POINT ( 'NONE',  ( 12.69999999999999929, 1.555301434917138433E-15, 2.699999999999994849 ) ) ;
#165 = EDGE_CURVE ( 'NONE', #117, #192, #168, .T. ) ;
#166 = DIRECTION ( 'NONE',  ( -0.0000000000000000000, -0.0000000000000000000, -1.000000000000000000 ) ) ;
#167 = DIRECTION ( 'NONE',  ( 0.0000000000000000000, 0.0000000000000000000, 1.000000000000000000 ) ) ;
#168 = LINE ( 'NONE', #5, #75 ) ;
#169 = DIRECTION ( 'NONE',  ( -0.0000000000000000000, -0.0000000000000000000, -1.000000000000000000 ) ) ;
#170 = ORIENTED_EDGE ( 'NONE', *, *, #210, .F. ) ;
#171 = CARTESIAN_POINT ( 'NONE',  ( 0.0000000000000000000, 0.0000000000000000000, 3.000000000000000000 ) ) ;
#172 = CARTESIAN_POINT ( 'NONE',  ( 0.0000000000000000000, 0.0000000000000000000, 0.2999999999999981570 ) ) ;
#173 = CARTESIAN_POINT ( 'NONE',  ( 0.0000000000000000000, 0.0000000000000000000, 3.000000000000000000 ) ) ;
#174 = EDGE_LOOP ( 'NONE', ( #140, #136, #83, #213 ) ) ;
#175 = EDGE_CURVE ( 'NONE', #18, #209, #20, .T. ) ;
#176 = ADVANCED_FACE ( 'NONE', ( #212 ), #127, .T. ) ;
#177 = SURFACE_STYLE_USAGE ( .BOTH. , #61 ) ;
#178 = UNCERTAINTY_MEASURE_WITH_UNIT (LENGTH_MEASURE( 1.000000000000000082E-05 ), #193, 'distance_accuracy_value', 'NONE');
#179 = CLOSED_SHELL ( 'NONE', ( #40, #176, #22, #85, #237, #46, #72, #152 ) ) ;
#180 = EDGE_LOOP ( 'NONE', ( #121, #68, #159, #73 ) ) ;
#181 = AXIS2_PLACEMENT_3D ( 'NONE', #14, #240, #28 ) ;
#182 = CYLINDRICAL_SURFACE ( 'NONE', #230, 12.69999999999999929 ) ;
#183 = VERTEX_POINT ( 'NONE', #153 ) ;
#184 = DIRECTION ( 'NONE',  ( -1.000000000000000000, 0.0000000000000000000, 0.0000000000000000000 ) ) ;
#185 = CARTESIAN_POINT ( 'NONE',  ( 12.69999999999999929, 1.555301434917138433E-15, 0.2999999999999981570 ) ) ;
#186 = CARTESIAN_POINT ( 'NONE',  ( 0.0000000000000000000, 0.0000000000000000000, 0.0000000000000000000 ) ) ;
#187 = CONICAL_SURFACE ( 'NONE', #104, 12.39999999999999325, 0.7853981633974511656 ) ;
#188 = DIRECTION ( 'NONE',  ( 1.000000000000000000, 0.0000000000000000000, 0.0000000000000000000 ) ) ;
#189 =( LENGTH_UNIT ( ) NAMED_UNIT ( * ) SI_UNIT ( .MILLI., .METRE. ) );
#190 = EDGE_CURVE ( 'NONE', #183, #117, #207, .T. ) ;
#191 = ORIENTED_EDGE ( 'NONE', *, *, #94, .T. ) ;
#192 = VERTEX_POINT ( 'NONE', #185 ) ;
#193 =( LENGTH_UNIT ( ) NAMED_UNIT ( * ) SI_UNIT ( .MILLI., .METRE. ) );
#194 = APPLICATION_CONTEXT ( 'automotive_design' ) ;
#195 = ADVANCED_BREP_SHAPE_REPRESENTATION ( 'GCC-411124', ( #142, #11 ), #233 ) ;
#196 = EDGE_CURVE ( 'NONE', #25, #192, #143, .T. ) ;
#197 = DIRECTION ( 'NONE',  ( -0.0000000000000000000, -0.0000000000000000000, 1.000000000000000000 ) ) ;
#198 = EDGE_CURVE ( 'NONE', #209, #18, #111, .T. ) ;
#199 = VECTOR ( 'NONE', #37, 1000.000000000000000 ) ;
#200 = CIRCLE ( 'NONE', #54, 12.39999999999999325 ) ;
#201 = DIRECTION ( 'NONE',  ( 1.000000000000000000, 0.0000000000000000000, -0.0000000000000000000 ) ) ;
#202 = ORIENTED_EDGE ( 'NONE', *, *, #82, .F. ) ;
#203 = EDGE_CURVE ( 'NONE', #109, #117, #215, .T. ) ;
#204 = CARTESIAN_POINT ( 'NONE',  ( 0.0000000000000000000, 0.0000000000000000000, 3.000000000000000000 ) ) ;
#205 = CARTESIAN_POINT ( 'NONE',  ( 12.39999999999999325, 1.518562030942716784E-15, 3.000000000000000000 ) ) ;
#206 = DIRECTION ( 'NONE',  ( 1.000000000000000000, 0.0000000000000000000, 0.0000000000000000000 ) ) ;
#207 = CIRCLE ( 'NONE', #19, 12.69999999999999929 ) ;
#208 = CARTESIAN_POINT ( 'NONE',  ( 0.0000000000000000000, 0.0000000000000000000, 0.2999999999999981570 ) ) ;
#209 = VERTEX_POINT ( 'NONE', #118 ) ;
#210 = EDGE_CURVE ( 'NONE', #192, #25, #107, .T. ) ;
#211 = ORIENTED_EDGE ( 'NONE', *, *, #96, .F. ) ;
#212 = FACE_OUTER_BOUND ( 'NONE', #44, .T. ) ;
#213 = ORIENTED_EDGE ( 'NONE', *, *, #196, .F. ) ;
#214 = ORIENTED_EDGE ( 'NONE', *, *, #67, .F. ) ;
#215 = LINE ( 'NONE', #205, #199 ) ;
#216 = PLANE ( 'NONE',  #39 ) ;
#217 = CARTESIAN_POINT ( 'NONE',  ( 12.39999999999999325, 1.536931732929927411E-15, 3.000000000000000000 ) ) ;
#218 = FACE_OUTER_BOUND ( 'NONE', #221, .T. ) ;
#219 = ORIENTED_EDGE ( 'NONE', *, *, #190, .T. ) ;
#220 = PRODUCT_RELATED_PRODUCT_CATEGORY ( 'part', '', ( #78 ) ) ;
#221 = EDGE_LOOP ( 'NONE', ( #219, #101, #21, #239 ) ) ;
#222 = CARTESIAN_POINT ( 'NONE',  ( -12.69999999999999929, 0.0000000000000000000, 3.000000000000000000 ) ) ;
#223 = ORIENTED_EDGE ( 'NONE', *, *, #203, .F. ) ;
#224 = AXIS2_PLACEMENT_3D ( 'NONE', #173, #144, #161 ) ;
#225 = CARTESIAN_POINT ( 'NONE',  ( 0.0000000000000000000, 0.0000000000000000000, 0.0000000000000000000 ) ) ;
#226 = FACE_OUTER_BOUND ( 'NONE', #125, .T. ) ;
#227 = CARTESIAN_POINT ( 'NONE',  ( -12.39999999999999325, 0.0000000000000000000, 3.000000000000000000 ) ) ;
#228 = DIRECTION ( 'NONE',  ( 1.000000000000000000, 0.0000000000000000000, -0.0000000000000000000 ) ) ;
#229 = SURFACE_SIDE_STYLE ('',( #47 ) ) ;
#230 = AXIS2_PLACEMENT_3D ( 'NONE', #50, #166, #184 ) ;
#231 = ORIENTED_EDGE ( 'NONE', *, *, #198, .F. ) ;
#232 =( NAMED_UNIT ( * ) SI_UNIT ( $, .STERADIAN. ) SOLID_ANGLE_UNIT ( ) );
#233 =( GEOMETRIC_REPRESENTATION_CONTEXT ( 3 ) GLOBAL_UNCERTAINTY_ASSIGNED_CONTEXT ( ( #69 ) ) GLOBAL_UNIT_ASSIGNED_CONTEXT ( ( #23, #6, #123 ) ) REPRESENTATION_CONTEXT ( 'NONE', 'WORKASPACE' ) );
#234 = STYLED_ITEM ( 'NONE', ( #13 ), #142 ) ;
#235 = CARTESIAN_POINT ( 'NONE',  ( 0.0000000000000000000, 0.0000000000000000000, 0.0000000000000000000 ) ) ;
#236 = CARTESIAN_POINT ( 'NONE',  ( -12.69999999999999929, 1.555301434917138433E-15, 0.2999999999999981570 ) ) ;
#237 = ADVANCED_FACE ( 'NONE', ( #226 ), #114, .T. ) ;
#238 = PRESENTATION_LAYER_ASSIGNMENT (  '', '', ( #141 ) ) ;
#239 = ORIENTED_EDGE ( 'NONE', *, *, #122, .F. ) ;
#240 = DIRECTION ( 'NONE',  ( 0.0000000000000000000, 0.0000000000000000000, 1.000000000000000000 ) ) ;
ENDSEC;
END-ISO-10303-21;
